คอร์ดเพลง เหนื่อยเปล่า – เสือใหญ่ – คอร์ดเพลงใหม่

คุณกำลังมองหาคอร์ดสำหรับเพลงที่เพิ่งออกใหม่หรือไม่? คุณกำลังมองหาคอร์ด คอร์ดเพลง เหนื่อยเปล่า – เสือใหญ่ อยู่ใช่ไหม หากเป็นเช่นนั้นโปรดดูตอนนี้.

คอร์ดเพลง เหนื่อยเปล่า – เสือใหญ่ – คอร์ดเพลงใหม่.

 เหนื่อยเปล่า
Artist:เสือใหญ่
Intro:G# ( 4TIMES)

G#
1----------4-----------------
2-------------4--------------
-3----------5 ----------5--------
-4---6-------------------------
-5--------------------------------------
6-----------------------------

1----------- 4----------------
2------------------ 4--------------
-3----------5 ----------------------
-4---6-------------------6------
-5--------------------------------------
6-----------------------------

1----------4-----------------
2-------------4--------------
-3----------5 ----------5--------
-4---6-------------------------
-5--------------------------------------
6-----------------------------

1----------------- 1------------------4-----------------
2----------------- 2------------------------------------
3----------------- 3-------------5----------------------
4------5—6------ 4-------6-----------------------6--
5----6------------------ 5—6---------------------------6-------------

G# Fm
รู้ตัวหรือป่าว ว่าเรานั้นมันเพ้อเจ้อ
C# D#
เค้าสวยงามเค้าเลิศเลอ เรามันคัย
Cm Fm
เฉยดีกว่า อย่าหาเรื่องใส่ตัว
Cm C#
ไอเราก็กัวซะเมื่อไหร่
Bbm Cm
ต่อหั้ยรู้ ต้องเจ็บต้องต้องช้ำหนัก
C# D#
แต่ไม่รักมันก็เสียดาย
G# D# Fm Bbm
**เหนื่อยป่าวเราก็พอรู้ตัว แต่หัวจัยก็ดิ้นรน
C# D#
คนมันเป็นแบบนั้น
G# D# Fm Bbm
เหนื่อยป่าวเราก็พอเข้าจัย แต่หัวจัยก็ดื้อรั้น
C# D# G#
ยิ่งห้ามมันก็ยิ่งรัก คนเรา

G# Fm
ช้ำจัยป่าวๆๆ แต่เราก็ยังเพ้อเจ้อ
C# D#
รักก็เจ็บ ไม่รักก็จบ แต่มันคาจัย

SOLO:G#/D#/Bbm/C#/Fm/Cm/C#/D#

2---13^-13^-- 13^-----9/11—9—8--9-9/11---------------------------------------
3--------------------------------------------------------10----10—12—13-10-12----------

2------------11/13—13p11p13—9—9/11—11/13—9----
3---12/13-----------------------------------------------------------------------------

1----------------11/13*-----------------14/15---11----------------------------------11/13-11
2---13-----13-----------13-------13--------------------13-14---13-14—13-----
3-------15---------------------15----------------------------------------------------13

1--13^13^13^---11-11---11/13—11*
2---------------------------------------
3----------------------------------------

ป.ล. ของผมตั้งอาจสายต่ำ เลยต้องเล่นคอร์ดติดชาร์ป (#) ถ้าคัยตั้งสายปกติก็หั้ยเล่นต่ำขึ้นมาครึ่งเสียง
เช่น G# ก็เป็น G , Fm ก็เป็น Em , C# ก็เป็น C ฯลฯ
สุดๆแล้วผิดนิดผิดหน่อยคงไม่ว่ากานก็ช่วยแก้ๆกานไปนะคับ ไงก็ช่วยโหวตเพงนี้หน่อยละกานคับ ผมเป็นแฟนเพงวงเสือใหญ่เข้าเส้นเลือดจิงๆคับ

^ = ดันสาย
* = ขยี้สาย , / = สไลด์

นอกจากคอร์ดเพลง คอร์ดเพลง เหนื่อยเปล่า – เสือใหญ่ แล้วคุณสามารถดูคอร์ดเพลงดีๆเพิ่มเติมได้ที่นี่: Chords.

การค้นหาที่เกี่ยวข้องกับ คอร์ดเพลง เหนื่อยเปล่า – เสือใหญ่.

#คอรดเพลง #เหนอยเปลา #เสอใหญ

รูปภาพที่เกี่ยวข้องกับ คอร์ดเพลง เหนื่อยเปล่า – เสือใหญ่.

คอร์ดเพลง เหนื่อยเปล่า - เสือใหญ่ | คอร์ดเพลงใหม่
คอร์ดเพลง เหนื่อยเปล่า – เสือใหญ่ | Popasia

สามารถดูข้อมูลเพลงเพิ่มเติมได้ที่นี่: Popasia.net.

ขอบคุณมากที่ติดตามบทความของเรา.

ผู้คนยังค้นหา

คอร์ดเพลงโปรดมอง
คอร์ดเพลงนกเจ่า
คอร์ดเพลงขอโทษ
คอร์ดเพลงแฟนตัวยง
คอร์ดเพลงใส่ใจได้แค่มอง
คอร์ดเพลงไสเจ้าว่า
คอร์ดเพลงเพื่อชีวิต
คอร์ดเพลงเสมอ

ใส่ความเห็น