คอร์ดเพลง เลิก – มะลิ – คอร์ดเพลงใหม่

คุณกำลังมองหาคอร์ดสำหรับเพลงที่เพิ่งออกใหม่หรือไม่? คุณกำลังมองหาคอร์ด คอร์ดเพลง เลิก – มะลิ อยู่ใช่ไหม หากเป็นเช่นนั้นโปรดดูตอนนี้.

คอร์ดเพลง เลิก – มะลิ – คอร์ดเพลงใหม่.


SoLo
1------------------------------------------------------------------------9h10-(9)------
2--10h12-10-----10h12-10---10h12-10--10h12-10----10h12-10------------12-10
3--------------9--------------9--------------------------9------------------------------

1-----------------------------------10h9----------------------------------
2--10h12-10----10h12-10----10-------10-----10h12-10----10h12-10
3--------------9--------------9---------------9--------------9------------
ท่อนเร็วนะครับ
1--17-17-16-17-16--------------------------
2----------------------17-------------------17
3---------------------------16--14-13-14----
4----------------------------------------------
ลองเล่นดูได้ครับ
paramet_zaahotmail.com

นอกจากคอร์ดเพลง คอร์ดเพลง เลิก – มะลิ แล้วคุณสามารถดูคอร์ดเพลงดีๆเพิ่มเติมได้ที่นี่: Chords.

การค้นหาที่เกี่ยวข้องกับ คอร์ดเพลง เลิก – มะลิ.

#คอรดเพลง #เลก #มะล

รูปภาพที่เกี่ยวข้องกับ คอร์ดเพลง เลิก – มะลิ.

คอร์ดเพลง เลิก - มะลิ | คอร์ดเพลงใหม่
คอร์ดเพลง เลิก – มะลิ | Popasia

สามารถดูข้อมูลเพลงเพิ่มเติมได้ที่นี่: Popasia.net.

ขอบคุณมากที่ติดตามบทความของเรา.

ผู้คนยังค้นหา

คอร์ดเพลงโปรดมอง
คอร์ดเพลงนกเจ่า
คอร์ดเพลงขอโทษ
คอร์ดเพลงแฟนตัวยง
คอร์ดเพลงใส่ใจได้แค่มอง
คอร์ดเพลงไสเจ้าว่า
คอร์ดเพลงเพื่อชีวิต
คอร์ดเพลงเสมอ

ใส่ความเห็น