คอร์ดเพลง เพลงประกอบโฆษณา M-150 – บอดี้แสลม – คอร์ดเพลงใหม่

คุณกำลังมองหาคอร์ดสำหรับเพลงที่เพิ่งออกใหม่หรือไม่? คุณกำลังมองหาคอร์ด คอร์ดเพลง เพลงประกอบโฆษณา M-150 – บอดี้แสลม อยู่ใช่ไหม หากเป็นเช่นนั้นโปรดดูตอนนี้.

คอร์ดเพลง เพลงประกอบโฆษณา M-150 – บอดี้แสลม – คอร์ดเพลงใหม่.

Em G
จุดพลัง จุดแสงไฟแห่งความหวังขึ้นมา
Em C G
จุดความรัก จุดพลังศรัทธาจากหัวใจ จุดมันขึ้นมา
G Em
จากศูนย์กลายเป็นสิบ จากร้อยกลายเป็นพัน
G Em
จากไหนไม่สำคัญ วันนี้ร่วมใจกัน
G Em C
* มาร่วมกันทำให้สุดชีวิต ทำวันนี้ให้ดีมีความหมาย
G Em C D G
พลังดนตรีจะกู่จะร้อง ด้วยพลังรัก สุดใจ สุดชีวิตคนไทย

Tabครับ
E------------------------------------------------------------------------------------------------------
B----------------------------10------------------10-------10--12--13--12--10--12------------
G-------------9--11--12-------12--11--12-------12--------------------------------------------
D--10--12-----------------------------------------------------------------------------------------
A-----------------------------------------------------------------------------------------------------
E-----------------------------------------------------------------------------------------------------

E--15-14-15--12-14-----12------------------------------------------
B-------------------------15-----13-15-12-13-----12----------------
G---------------------------------------------------14-----11h12------
D---------------------------------------------------------------------------
A---------------------------------------------------------------------------
E---------------------------------------------------------------------------

ได้เหมือนกัน

((ขอคอร์ดกีต้าร์))

นอกจากคอร์ดเพลง คอร์ดเพลง เพลงประกอบโฆษณา M-150 – บอดี้แสลม แล้วคุณสามารถดูคอร์ดเพลงดีๆเพิ่มเติมได้ที่นี่: Chords.

การค้นหาที่เกี่ยวข้องกับ คอร์ดเพลง เพลงประกอบโฆษณา M-150 – บอดี้แสลม.

#คอรดเพลง #เพลงประกอบโฆษณา #M150 #บอดแสลม

รูปภาพที่เกี่ยวข้องกับ คอร์ดเพลง เพลงประกอบโฆษณา M-150 – บอดี้แสลม.

คอร์ดเพลง เพลงประกอบโฆษณา M-150 - บอดี้แสลม | คอร์ดเพลงใหม่
คอร์ดเพลง เพลงประกอบโฆษณา M-150 – บอดี้แสลม | Popasia

สามารถดูข้อมูลเพลงเพิ่มเติมได้ที่นี่: Popasia.net.

ขอบคุณมากที่ติดตามบทความของเรา.

ผู้คนยังค้นหา

คอร์ดเพลงโปรดมอง
คอร์ดเพลงนกเจ่า
คอร์ดเพลงขอโทษ
คอร์ดเพลงแฟนตัวยง
คอร์ดเพลงใส่ใจได้แค่มอง
คอร์ดเพลงไสเจ้าว่า
คอร์ดเพลงเพื่อชีวิต
คอร์ดเพลงเสมอ

ใส่ความเห็น